  0
SECTION
  2
HEADER
  9
$ACADVER
  1
AC1015
  9
$ACADMAINTVER
 70
     6
  9
$DWGCODEPAGE
  3
ANSI_1254
  9
$INSBASE
 10
0.0
 20
0.0
 30
0.0
  9
$EXTMIN
 10
0.0
 20
0.0
 30
0.0
  9
$EXTMAX
 10
279.4
 20
215.9
 30
0.0
  9
$LIMMIN
 10
0.0
 20
0.0
  9
$LIMMAX
 10
279.4
 20
215.9
  9
$ORTHOMODE
 70
     0
  9
$REGENMODE
 70
     1
  9
$FILLMODE
 70
     1
  9
$QTEXTMODE
 70
     0
  9
$MIRRTEXT
 70
     1
  9
$LTSCALE
 40
1.0
  9
$ATTMODE
 70
     1
  9
$TEXTSIZE
 40
3.5
  9
$TRACEWID
 40
1.0
  9
$TEXTSTYLE
  7
Standard
  9
$CLAYER
  8
0
  9
$CELTYPE
  6
ByLayer
  9
$CECOLOR
 62
   256
  9
$CELTSCALE
 40
1.0
  9
$DISPSILH
 70
     0
  9
$DIMSCALE
 40
1.0
  9
$DIMASZ
 40
3.5
  9
$DIMEXO
 40
1.0
  9
$DIMDLI
 40
3.75
  9
$DIMRND
 40
0.0
  9
$DIMDLE
 40
0.0
  9
$DIMEXE
 40
1.0
  9
$DIMTP
 40
0.0
  9
$DIMTM
 40
0.0
  9
$DIMTXT
 40
3.5
  9
$DIMCEN
 40
2.5
  9
$DIMTSZ
 40
0.0
  9
$DIMTOL
 70
     0
  9
$DIMLIM
 70
     0
  9
$DIMTIH
 70
     1
  9
$DIMTOH
 70
     1
  9
$DIMSE1
 70
     0
  9
$DIMSE2
 70
     0
  9
$DIMTAD
 70
     1
  9
$DIMZIN
 70
     0
  9
$DIMBLK
  1

  9
$DIMASO
 70
     1
  9
$DIMSHO
 70
     1
  9
$DIMPOST
  1

  9
$DIMAPOST
  1

  9
$DIMALT
 70
     0
  9
$DIMALTD
 70
     3
  9
$DIMALTF
 40
0.0393700787
  9
$DIMLFAC
 40
1.0
  9
$DIMTOFL
 70
     1
  9
$DIMTVP
 40
0.0
  9
$DIMTIX
 70
     0
  9
$DIMSOXD
 70
     0
  9
$DIMSAH
 70
     0
  9
$DIMBLK1
  1

  9
$DIMBLK2
  1

  9
$DIMSTYLE
  2
ISO-25
  9
$DIMCLRD
 70
     0
  9
$DIMCLRE
 70
     0
  9
$DIMCLRT
 70
     0
  9
$DIMTFAC
 40
1.0
  9
$DIMGAP
 40
1.524
  9
$DIMJUST
 70
     0
  9
$DIMSD1
 70
     0
  9
$DIMSD2
 70
     0
  9
$DIMTOLJ
 70
     0
  9
$DIMTZIN
 70
     0
  9
$DIMALTZ
 70
     0
  9
$DIMALTTZ
 70
     0
  9
$DIMUPT
 70
     0
  9
$DIMDEC
 70
     2
  9
$DIMTDEC
 70
     2
  9
$DIMALTU
 70
     2
  9
$DIMALTTD
 70
     3
  9
$DIMTXSTY
  7
Standard
  9
$DIMAUNIT
 70
     0
  9
$DIMADEC
 70
     2
  9
$DIMALTRND
 40
0.0
  9
$DIMAZIN
 70
     0
  9
$DIMDSEP
 70
    44
  9
$DIMATFIT
 70
     3
  9
$DIMFRAC
 70
     0
  9
$DIMLDRBLK
  1

  9
$DIMLUNIT
 70
     2
  9
$DIMLWD
 70
    -2
  9
$DIMLWE
 70
    -2
  9
$DIMTMOVE
 70
     0
  9
$LUNITS
 70
     2
  9
$LUPREC
 70
     2
  9
$SKETCHINC
 40
1.0
  9
$FILLETRAD
 40
10.0
  9
$AUNITS
 70
     0
  9
$AUPREC
 70
     2
  9
$MENU
  1
.
  9
$ELEVATION
 40
0.0
  9
$PELEVATION
 40
0.0
  9
$THICKNESS
 40
0.0
  9
$LIMCHECK
 70
     0
  9
$CHAMFERA
 40
0.0
  9
$CHAMFERB
 40
0.0
  9
$CHAMFERC
 40
0.0
  9
$CHAMFERD
 40
0.0
  9
$SKPOLY
 70
     0
  9
$TDCREATE
 40
2458985.690899699
  9
$TDUCREATE
 40
2458985.565899699
  9
$TDUPDATE
 40
2458985.690900046
  9
$TDUUPDATE
 40
2458985.565900046
  9
$TDINDWG
 40
0.0000000116
  9
$TDUSRTIMER
 40
0.0000000116
  9
$USRTIMER
 70
     1
  9
$ANGBASE
 50
0.0
  9
$ANGDIR
 70
     0
  9
$PDMODE
 70
     0
  9
$PDSIZE
 40
-1.0
  9
$PLINEWID
 40
0.0
  9
$SPLFRAME
 70
     0
  9
$SPLINETYPE
 70
     6
  9
$SPLINESEGS
 70
     8
  9
$HANDSEED
  5
CB
  9
$SURFTAB1
 70
     6
  9
$SURFTAB2
 70
     6
  9
$SURFTYPE
 70
     6
  9
$SURFU
 70
     6
  9
$SURFV
 70
     6
  9
$UCSBASE
  2

  9
$UCSNAME
  2

  9
$UCSORG
 10
0.0
 20
0.0
 30
0.0
  9
$UCSXDIR
 10
1.0
 20
0.0
 30
0.0
  9
$UCSYDIR
 10
0.0
 20
1.0
 30
0.0
  9
$UCSORTHOREF
  2

  9
$UCSORTHOVIEW
 70
     0
  9
$UCSORGTOP
 10
0.0
 20
0.0
 30
0.0
  9
$UCSORGBOTTOM
 10
0.0
 20
0.0
 30
0.0
  9
$UCSORGLEFT
 10
0.0
 20
0.0
 30
0.0
  9
$UCSORGRIGHT
 10
0.0
 20
0.0
 30
0.0
  9
$UCSORGFRONT
 10
0.0
 20
0.0
 30
0.0
  9
$UCSORGBACK
 10
0.0
 20
0.0
 30
0.0
  9
$PUCSBASE
  2

  9
$PUCSNAME
  2

  9
$PUCSORG
 10
0.0
 20
0.0
 30
0.0
  9
$PUCSXDIR
 10
1.0
 20
0.0
 30
0.0
  9
$PUCSYDIR
 10
0.0
 20
1.0
 30
0.0
  9
$PUCSORTHOREF
  2

  9
$PUCSORTHOVIEW
 70
     0
  9
$PUCSORGTOP
 10
0.0
 20
0.0
 30
0.0
  9
$PUCSORGBOTTOM
 10
0.0
 20
0.0
 30
0.0
  9
$PUCSORGLEFT
 10
0.0
 20
0.0
 30
0.0
  9
$PUCSORGRIGHT
 10
0.0
 20
0.0
 30
0.0
  9
$PUCSORGFRONT
 10
0.0
 20
0.0
 30
0.0
  9
$PUCSORGBACK
 10
0.0
 20
0.0
 30
0.0
  9
$USERI1
 70
     0
  9
$USERI2
 70
     0
  9
$USERI3
 70
     0
  9
$USERI4
 70
     0
  9
$USERI5
 70
     0
  9
$USERR1
 40
0.0
  9
$USERR2
 40
0.0
  9
$USERR3
 40
0.0
  9
$USERR4
 40
0.0
  9
$USERR5
 40
0.0
  9
$WORLDVIEW
 70
     1
  9
$SHADEDGE
 70
     3
  9
$SHADEDIF
 70
    70
  9
$TILEMODE
 70
     1
  9
$MAXACTVP
 70
    64
  9
$PINSBASE
 10
0.0
 20
0.0
 30
0.0
  9
$PLIMCHECK
 70
     0
  9
$PEXTMIN
 10
1.0000000000E+20
 20
1.0000000000E+20
 30
1.0000000000E+20
  9
$PEXTMAX
 10
-1.0000000000E+20
 20
-1.0000000000E+20
 30
-1.0000000000E+20
  9
$PLIMMIN
 10
0.0
 20
0.0
  9
$PLIMMAX
 10
420.0
 20
297.0
  9
$UNITMODE
 70
     0
  9
$VISRETAIN
 70
     1
  9
$PLINEGEN
 70
     0
  9
$PSLTSCALE
 70
     1
  9
$TREEDEPTH
 70
  3020
  9
$CMLSTYLE
  2
Standard
  9
$CMLJUST
 70
     0
  9
$CMLSCALE
 40
20.0
  9
$PROXYGRAPHICS
 70
     1
  9
$MEASUREMENT
 70
     1
  9
$CELWEIGHT
370
    -1
  9
$ENDCAPS
280
     0
  9
$JOINSTYLE
280
     0
  9
$LWDISPLAY
290
     1
  9
$INSUNITS
 70
     4
  9
$HYPERLINKBASE
  1

  9
$STYLESHEET
  1

  9
$XEDIT
290
     1
  9
$CEPSNTYPE
380
     0
  9
$PSTYLEMODE
290
     1
  9
$FINGERPRINTGUID
  2
{b5efc63d-ad46-4975-a845-2ea6e78f2330}
  9
$VERSIONGUID
  2
{FAEB1C32-E019-11D5-929B-00C0DF256EC4}
  9
$EXTNAMES
290
     1
  9
$PSVPSCALE
 40
0.0
  9
$OLESTARTUP
290
     0
  0
ENDSEC
  0
SECTION
  2
CLASSES
  0
CLASS
  1
ACDBDICTIONARYWDFLT
  2
AcDbDictionaryWithDefault
  3
ObjectDBX Classes
 90
        0
280
     0
281
     0
  0
CLASS
  1
VISUALSTYLE
  2
AcDbVisualStyle
  3
ObjectDBX Classes
 90
     4095
280
     0
281
     0
  0
CLASS
  1
MATERIAL
  2
AcDbMaterial
  3
ObjectDBX Classes
 90
     1153
280
     0
281
     0
  0
CLASS
  1
SCALE
  2
AcDbScale
  3
ObjectDBX Classes
 90
     1153
280
     0
281
     0
  0
CLASS
  1
TABLESTYLE
  2
AcDbTableStyle
  3
ObjectDBX Classes
 90
     4095
280
     0
281
     0
  0
CLASS
  1
MLEADERSTYLE
  2
AcDbMLeaderStyle
  3
ACDB_MLEADERSTYLE_CLASS
 90
     4095
280
     0
281
     0
  0
CLASS
  1
SUN
  2
AcDbSun
  3
SCENEOE
 90
     1153
280
     0
281
     0
  0
CLASS
  1
ACDBPLACEHOLDER
  2
AcDbPlaceHolder
  3
ObjectDBX Classes
 90
        0
280
     0
281
     0
  0
CLASS
  1
LAYOUT
  2
AcDbLayout
  3
ObjectDBX Classes
 90
        0
280
     0
281
     0
  0
ENDSEC
  0
SECTION
  2
TABLES
  0
TABLE
  2
VPORT
  5
8
330
0
100
AcDbSymbolTable
 70
     1
  0
VPORT
  5
29
330
8
100
AcDbSymbolTableRecord
100
AcDbViewportTableRecord
  2
*Active
 70
     0
 10
0.0
 20
0.0
 11
1.0
 21
1.0
 12
139.7
 22
107.95
 13
0.0
 23
0.0
 14
10.0
 24
10.0
 15
10.0
 25
10.0
 16
0.0
 26
0.0
 36
1.0
 17
0.0
 27
0.0
 37
0.0
 40
215.9
 41
1.2941176471
 42
50.0
 43
0.0
 44
0.0
 50
0.0
 51
0.0
 71
     0
 72
  2000
 73
     1
 74
     3
 75
     0
 76
     0
 77
     0
 78
     0
281
     0
 65
     1
110
0.0
120
0.0
130
0.0
111
1.0
121
0.0
131
0.0
112
0.0
122
1.0
132
0.0
 79
     0
146
0.0
  0
ENDTAB
  0
TABLE
  2
LTYPE
  5
5
330
0
100
AcDbSymbolTable
 70
     6
  0
LTYPE
  5
14
330
5
100
AcDbSymbolTableRecord
100
AcDbLinetypeTableRecord
  2
ByBlock
 70
     0
  3

 72
    65
 73
     0
 40
0.0
  0
LTYPE
  5
15
330
5
100
AcDbSymbolTableRecord
100
AcDbLinetypeTableRecord
  2
ByLayer
 70
     0
  3

 72
    65
 73
     0
 40
0.0
  0
LTYPE
  5
16
330
5
100
AcDbSymbolTableRecord
100
AcDbLinetypeTableRecord
  2
Continuous
 70
     0
  3
Solid line
 72
    65
 73
     0
 40
0.0
  0
LTYPE
  5
6E
330
5
100
AcDbSymbolTableRecord
100
AcDbLinetypeTableRecord
  2
HIDDEN
 70
     0
  3
Hidden __ __ __ __ __ __ __ __ __ __ __ __ __ __
 72
    65
 73
     2
 40
1.905
 49
1.27
 74
     0
 49
-0.635
 74
     0
  0
LTYPE
  5
6F
330
5
100
AcDbSymbolTableRecord
100
AcDbLinetypeTableRecord
  2
PHANTOM
 70
     0
  3
Phantom ______  __  __  ______  __  __  ______
 72
    65
 73
     6
 40
12.7
 49
6.35
 74
     0
 49
-1.27
 74
     0
 49
1.27
 74
     0
 49
-1.27
 74
     0
 49
1.27
 74
     0
 49
-1.27
 74
     0
  0
LTYPE
  5
70
330
5
100
AcDbSymbolTableRecord
100
AcDbLinetypeTableRecord
  2
CENTER
 70
     0
  3
Center ____ _ ____ _ ____ _ ____ _ ____ _ ____
 72
    65
 73
     4
 40
10.16
 49
6.35
 74
     0
 49
-1.27
 74
     0
 49
1.27
 74
     0
 49
-1.27
 74
     0
  0
LTYPE
  5
71
330
5
100
AcDbSymbolTableRecord
100
AcDbLinetypeTableRecord
  2
CENTERX2
 70
     0
  3
Center (2x) ________  __  ________  __  _____
 72
    65
 73
     4
 40
20.32
 49
12.7
 74
     0
 49
-2.54
 74
     0
 49
2.54
 74
     0
 49
-2.54
 74
     0
  0
LTYPE
  5
72
330
5
100
AcDbSymbolTableRecord
100
AcDbLinetypeTableRecord
  2
DOT2
 70
     0
  3
Dot (.5x) ........................................
 72
    65
 73
     2
 40
0.635
 49
0.0
 74
     0
 49
-0.635
 74
     0
  0
ENDTAB
  0
TABLE
  2
LAYER
  5
2
330
0
100
AcDbSymbolTable
 70
    17
  0
LAYER
  5
10
330
2
100
AcDbSymbolTableRecord
100
AcDbLayerTableRecord
  2
0
 70
     0
 62
     7
  6
Continuous
370
    -3
390
F
  0
LAYER
  5
73
330
2
100
AcDbSymbolTableRecord
100
AcDbLayerTableRecord
  2
FORMAT
 70
     0
 62
     7
  6
Continuous
370
    -3
390
F
  0
LAYER
  5
74
330
2
100
AcDbSymbolTableRecord
100
AcDbLayerTableRecord
  2
YARDIMCI_GEOMETRI
 70
     0
 62
    -6
  6
Continuous
290
     0
370
    -3
390
F
  0
LAYER
  5
75
330
2
100
AcDbSymbolTableRecord
100
AcDbLayerTableRecord
  2
SAYFA_CERCEVESI
 70
     0
 62
     7
  6
Continuous
370
    25
390
F
  0
LAYER
  5
76
330
2
100
AcDbSymbolTableRecord
100
AcDbLayerTableRecord
  2
ANTET
 70
     0
 62
     7
  6
Continuous
370
    -3
390
F
  0
LAYER
  5
77
330
2
100
AcDbSymbolTableRecord
100
AcDbLayerTableRecord
  2
OLCU
 70
     0
 62
   150
  6
Continuous
370
    -3
390
F
  0
LAYER
  5
78
330
2
100
AcDbSymbolTableRecord
100
AcDbLayerTableRecord
  2
METIN
 70
     0
 62
    96
  6
Continuous
370
    -3
390
F
  0
LAYER
  5
79
330
2
100
AcDbSymbolTableRecord
100
AcDbLayerTableRecord
  2
BALON
 70
     0
 62
     5
  6
Continuous
370
    -3
390
F
  0
LAYER
  5
7A
330
2
100
AcDbSymbolTableRecord
100
AcDbLayerTableRecord
  2
VURGU
 70
     0
 62
     7
  6
Continuous
370
    -3
390
F
  0
LAYER
  5
7B
330
2
100
AcDbSymbolTableRecord
100
AcDbLayerTableRecord
  2
SILIK
 70
     0
 62
     7
  6
Continuous
370
    -3
390
F
  0
LAYER
  5
7C
330
2
100
AcDbSymbolTableRecord
100
AcDbLayerTableRecord
  2
MODEL
 70
     0
 62
     7
  6
Continuous
370
    -3
390
F
  0
LAYER
  5
7D
330
2
100
AcDbSymbolTableRecord
100
AcDbLayerTableRecord
  2
DETAYLANDıRMA
 70
     0
 62
   190
  6
Continuous
370
    -3
390
F
  0
LAYER
  5
7E
330
2
100
AcDbSymbolTableRecord
100
AcDbLayerTableRecord
  2
TOLERANS
 70
     0
 62
   230
  6
Continuous
370
    -3
390
F
  0
LAYER
  5
7F
330
2
100
AcDbSymbolTableRecord
100
AcDbLayerTableRecord
  2
MERKEZ_CIZGILERI
 70
     0
 62
    30
  6
Continuous
370
    -3
390
F
  0
LAYER
  5
80
330
2
100
AcDbSymbolTableRecord
100
AcDbLayerTableRecord
  2
KESIT-DETAY_CIZGILERI
 70
     0
 62
     7
  6
Continuous
370
    -3
390
F
  0
LAYER
  5
81
330
2
100
AcDbSymbolTableRecord
100
AcDbLayerTableRecord
  2
\U+041E\U+0421\U+0415\U+0412\U+042B\U+0415
 70
     0
 62
     7
  6
Continuous
370
    -3
390
F
  0
LAYER
  5
82
330
2
100
AcDbSymbolTableRecord
100
AcDbLayerTableRecord
  2
\U+0412\U+041E\U+0414\U+042F\U+041D\U+042B\U+0415_\U+0417\U+041D\U+0410\U+041A\U+0418
 70
     0
 62
    11
  6
Continuous
370
    -3
390
F
  0
ENDTAB
  0
TABLE
  2
STYLE
  5
3
330
0
100
AcDbSymbolTable
 70
     1
  0
STYLE
  5
11
330
3
100
AcDbSymbolTableRecord
100
AcDbTextStyleTableRecord
  2
Standard
 70
     0
 40
0.0
 41
1.0
 50
0.0
 71
     0
 42
3.5
  3
txt
  4

  0
ENDTAB
  0
TABLE
  2
VIEW
  5
6
330
0
100
AcDbSymbolTable
 70
     0
  0
ENDTAB
  0
TABLE
  2
UCS
  5
7
330
0
100
AcDbSymbolTable
 70
     0
  0
ENDTAB
  0
TABLE
  2
APPID
  5
9
330
0
100
AcDbSymbolTable
 70
     1
  0
APPID
  5
12
330
9
100
AcDbSymbolTableRecord
100
AcDbRegAppTableRecord
  2
ACAD
 70
     0
  0
ENDTAB
  0
TABLE
  2
DIMSTYLE
  5
A
330
0
100
AcDbSymbolTable
 70
     1
100
AcDbDimStyleTable
  0
DIMSTYLE
105
27
330
A
100
AcDbSymbolTableRecord
100
AcDbDimStyleTableRecord
  2
ISO-25
 70
     0
 41
2.5
 42
0.625
 43
3.75
 44
1.25
 73
     0
 74
     0
 77
     1
 78
     8
140
2.5
141
2.5
143
0.0393700787
147
0.625
171
     3
172
     1
178
     0
271
     2
272
     2
274
     3
278
    44
283
     0
284
     8
340
11
  0
ENDTAB
  0
TABLE
  2
BLOCK_RECORD
  5
1
330
0
100
AcDbSymbolTable
 70
     3
  0
BLOCK_RECORD
  5
1F
330
1
100
AcDbSymbolTableRecord
100
AcDbBlockTableRecord
  2
*Model_Space
340
22
  0
BLOCK_RECORD
  5
1B
330
1
100
AcDbSymbolTableRecord
100
AcDbBlockTableRecord
  2
*Paper_Space
340
1E
  0
BLOCK_RECORD
  5
23
330
1
100
AcDbSymbolTableRecord
100
AcDbBlockTableRecord
  2
*Paper_Space0
340
26
  0
BLOCK_RECORD
  5
88
330
1
100
AcDbSymbolTableRecord
100
AcDbBlockTableRecord
  2
SW_CENTERMARKSYMBOL_0
340
0
102
{BLKREFS
331
93
102
}
  0
BLOCK_RECORD
  5
9C
330
1
100
AcDbSymbolTableRecord
100
AcDbBlockTableRecord
  2
SW_CENTERMARKSYMBOL_1
340
0
102
{BLKREFS
331
A7
102
}
  0
ENDTAB
  0
ENDSEC
  0
SECTION
  2
BLOCKS
  0
BLOCK
  5
20
330
1F
100
AcDbEntity
  8
0
100
AcDbBlockBegin
  2
*Model_Space
 70
     0
 10
0.0
 20
0.0
 30
0.0
  3
*Model_Space
  1

  0
ENDBLK
  5
21
330
1F
100
AcDbEntity
  8
0
100
AcDbBlockEnd
  0
BLOCK
  5
1C
330
1B
100
AcDbEntity
 67
     1
  8
0
100
AcDbBlockBegin
  2
*Paper_Space
 70
     0
 10
0.0
 20
0.0
 30
0.0
  3
*Paper_Space
  1

  0
ENDBLK
  5
1D
330
1B
100
AcDbEntity
 67
     1
  8
0
100
AcDbBlockEnd
  0
BLOCK
  5
24
330
23
100
AcDbEntity
  8
0
100
AcDbBlockBegin
  2
*Paper_Space0
 70
     0
 10
0.0
 20
0.0
 30
0.0
  3
*Paper_Space0
  1

  0
ENDBLK
  5
25
330
23
100
AcDbEntity
  8
0
100
AcDbBlockEnd
  0
BLOCK
  5
89
330
88
100
AcDbEntity
  8
0
100
AcDbBlockBegin
  2
SW_CENTERMARKSYMBOL_0
 70
     0
 10
0.0
 20
0.0
 30
0.0
  3
SW_CENTERMARKSYMBOL_0
  1

  0
LINE
  5
8B
330
88
100
AcDbEntity
  8
FORMAT
 62
     0
100
AcDbLine
 10
0.0
 20
0.0
 30
0.0
 11
2.5
 21
0.0
 31
0.0
  0
LINE
  5
8C
330
88
100
AcDbEntity
  8
FORMAT
 62
     0
100
AcDbLine
 10
0.0
 20
0.0
 30
0.0
 11
0.0
 21
2.5
 31
0.0
  0
LINE
  5
8D
330
88
100
AcDbEntity
  8
FORMAT
 62
     0
100
AcDbLine
 10
0.0
 20
0.0
 30
0.0
 11
-2.5
 21
0.0
 31
0.0
  0
LINE
  5
8E
330
88
100
AcDbEntity
  8
FORMAT
 62
     0
100
AcDbLine
 10
0.0
 20
0.0
 30
0.0
 11
0.0
 21
-2.5
 31
0.0
  0
LINE
  5
8F
330
88
100
AcDbEntity
  8
FORMAT
 62
     0
100
AcDbLine
 10
5.0
 20
0.0
 30
0.0
 11
102.5
 21
0.0
 31
0.0
  0
LINE
  5
90
330
88
100
AcDbEntity
  8
FORMAT
 62
     0
100
AcDbLine
 10
0.0
 20
5.0
 30
0.0
 11
0.0
 21
102.5
 31
0.0
  0
LINE
  5
91
330
88
100
AcDbEntity
  8
FORMAT
 62
     0
100
AcDbLine
 10
-5.0
 20
0.0
 30
0.0
 11
-102.5
 21
0.0
 31
0.0
  0
LINE
  5
92
330
88
100
AcDbEntity
  8
FORMAT
 62
     0
100
AcDbLine
 10
0.0
 20
-5.0
 30
0.0
 11
0.0
 21
-102.5
 31
0.0
  0
ENDBLK
  5
8A
330
88
100
AcDbEntity
  8
0
100
AcDbBlockEnd
  0
BLOCK
  5
9D
330
9C
100
AcDbEntity
  8
0
100
AcDbBlockBegin
  2
SW_CENTERMARKSYMBOL_1
 70
     0
 10
0.0
 20
0.0
 30
0.0
  3
SW_CENTERMARKSYMBOL_1
  1

  0
LINE
  5
9F
330
9C
100
AcDbEntity
  8
FORMAT
 62
     0
100
AcDbLine
 10
0.0
 20
0.0
 30
0.0
 11
0.0
 21
2.5
 31
0.0
  0
LINE
  5
A0
330
9C
100
AcDbEntity
  8
FORMAT
 62
     0
100
AcDbLine
 10
0.0
 20
0.0
 30
0.0
 11
-2.5
 21
0.0
 31
0.0
  0
LINE
  5
A1
330
9C
100
AcDbEntity
  8
FORMAT
 62
     0
100
AcDbLine
 10
0.0
 20
0.0
 30
0.0
 11
0.0
 21
-2.5
 31
0.0
  0
LINE
  5
A2
330
9C
100
AcDbEntity
  8
FORMAT
 62
     0
100
AcDbLine
 10
0.0
 20
0.0
 30
0.0
 11
2.5
 21
0.0
 31
0.0
  0
LINE
  5
A3
330
9C
100
AcDbEntity
  8
FORMAT
 62
     0
100
AcDbLine
 10
0.0
 20
5.0
 30
0.0
 11
0.0
 21
82.5
 31
0.0
  0
LINE
  5
A4
330
9C
100
AcDbEntity
  8
FORMAT
 62
     0
100
AcDbLine
 10
-5.0
 20
0.0
 30
0.0
 11
-82.5
 21
0.0
 31
0.0
  0
LINE
  5
A5
330
9C
100
AcDbEntity
  8
FORMAT
 62
     0
100
AcDbLine
 10
0.0
 20
-5.0
 30
0.0
 11
0.0
 21
-82.5
 31
0.0
  0
LINE
  5
A6
330
9C
100
AcDbEntity
  8
FORMAT
 62
     0
100
AcDbLine
 10
5.0
 20
0.0
 30
0.0
 11
82.5
 21
0.0
 31
0.0
  0
ENDBLK
  5
9E
330
9C
100
AcDbEntity
  8
0
100
AcDbBlockEnd
  0
ENDSEC
  0
SECTION
  2
ENTITIES
  0
LINE
  5
83
330
1F
100
AcDbEntity
  8
0
  6
Continuous
 62
     7
370
    25
100
AcDbLine
 10
60.2388293534
 20
121.9400235047
 30
0.0
 11
60.2388293534
 21
-45.0224957833
 31
0.0
  0
LINE
  5
84
330
1F
100
AcDbEntity
  8
0
  6
Continuous
 62
     7
370
    25
100
AcDbLine
 10
220.2388257771
 20
-45.0224957833
 30
0.0
 11
220.2388257771
 21
121.9018988838
 31
0.0
  0
CIRCLE
  5
85
330
1F
100
AcDbEntity
  8
0
  6
Continuous
 62
     7
370
    25
100
AcDbCircle
 10
140.2388275653
 20
181.9775023093
 30
0.0
 40
88.10000000000004
  0
CIRCLE
  5
86
330
1F
100
AcDbEntity
  8
0
  6
Continuous
 62
     7
370
    25
100
AcDbCircle
 10
140.2388275653
 20
181.9775023093
 30
0.0
 40
100.0
  0
LINE
  5
87
330
1F
100
AcDbEntity
  8
0
  6
Continuous
 62
     7
370
    25
100
AcDbLine
 10
220.2388257771
 20
-45.0224957833
 30
0.0
 11
60.2388293534
 21
-45.0224957833
 31
0.0
  0
INSERT
  5
93
330
1F
100
AcDbEntity
  8
FORMAT
 62
     7
100
AcDbBlockReference
  2
SW_CENTERMARKSYMBOL_0
 10
140.2388275653
 20
181.9775023093
 30
0.0
  0
LINE
  5
94
330
1F
100
AcDbEntity
  8
0
  6
Continuous
 62
     7
370
    25
100
AcDbLine
 10
240.2388290554
 20
373.4611549161
 30
0.0
 11
240.2388290554
 21
854.4611611149
 31
0.0
  0
LINE
  5
95
330
1F
100
AcDbEntity
  8
0
  6
Continuous
 62
     7
370
    25
100
AcDbLine
 10
40.2388260752
 20
854.4611611149
 30
0.0
 11
40.2388260752
 21
373.4611549161
 31
0.0
  0
CIRCLE
  5
96
330
1F
100
AcDbEntity
  8
0
  6
Continuous
 62
     7
370
    25
100
AcDbCircle
 10
140.2388275653
 20
613.9611580155
 30
0.0
 40
70.50000000000011
  0
CIRCLE
  5
97
330
1F
100
AcDbEntity
  8
0
  6
Continuous
 62
     7
370
    25
100
AcDbCircle
 10
140.2388275653
 20
613.9611580155
 30
0.0
 40
80.00000000000011
  0
LINE
  5
98
330
1F
100
AcDbEntity
  8
0
  6
Continuous
 62
     7
370
    25
100
AcDbLine
 10
140.2388275653
 20
854.4611611149
 30
0.0
 11
240.2388290554
 21
854.4611611149
 31
0.0
  0
LINE
  5
99
330
1F
100
AcDbEntity
  8
0
  6
Continuous
 62
     7
370
    25
100
AcDbLine
 10
40.2388260752
 20
854.4611611149
 30
0.0
 11
140.2388275653
 21
854.4611611149
 31
0.0
  0
LINE
  5
9A
330
1F
100
AcDbEntity
  8
0
  6
Continuous
 62
     7
370
    25
100
AcDbLine
 10
140.2388275653
 20
373.4611549161
 30
0.0
 11
240.2388290554
 21
373.4611549161
 31
0.0
  0
LINE
  5
9B
330
1F
100
AcDbEntity
  8
0
  6
Continuous
 62
     7
370
    25
100
AcDbLine
 10
40.2388260752
 20
373.4611549161
 30
0.0
 11
140.2388275653
 21
373.4611549161
 31
0.0
  0
INSERT
  5
A7
330
1F
100
AcDbEntity
  8
FORMAT
100
AcDbBlockReference
  2
SW_CENTERMARKSYMBOL_1
 10
140.2388275653
 20
613.9611580155
 30
0.0
  0
LINE
  5
A8
330
1F
100
AcDbEntity
  8
0
  6
Continuous
 62
     7
370
    25
100
AcDbLine
 10
-184.5443402907
 20
281.9775037994
 30
0.0
 11
-665.5443464896
 21
281.9775037994
 31
0.0
  0
LINE
  5
A9
330
1F
100
AcDbEntity
  8
0
  6
Continuous
 62
     7
370
    25
100
AcDbLine
 10
-345.0962757251
 20
81.9775008192
 30
0.0
 11
-184.5443402907
 21
81.9775008192
 31
0.0
  0
LINE
  5
AA
330
1F
100
AcDbEntity
  8
0
  6
Continuous
 62
     7
370
    25
100
AcDbLine
 10
-665.5443464896
 20
81.9775008192
 30
0.0
 11
-505.044341602
 21
81.9775008192
 31
0.0
  0
LINE
  5
AB
330
1F
100
AcDbEntity
  8
0
  6
Continuous
 62
     7
370
    25
100
AcDbLine
 10
-505.044341602
 20
81.9775008192
 30
0.0
 11
-505.044341602
 21
-45.0224957833
 31
0.0
  0
LINE
  5
AC
330
1F
100
AcDbEntity
  8
0
  6
Continuous
 62
     7
370
    25
100
AcDbLine
 10
-345.0443451783
 20
-45.0224957833
 30
0.0
 11
-345.0443451783
 21
82.0190750589
 31
0.0
  0
LWPOLYLINE
  5
AD
330
1F
100
AcDbEntity
  8
0
  6
Continuous
 62
     7
370
    25
100
AcDbPolyline
 90
       44
 70
   128
 43
0.0
 10
-345.0962757251
 20
82.0190750589
 10
-345.1229562542
 20
82.0404656758
 10
-345.5951666018
 20
82.4176140657
 10
-346.3722174546
 20
83.036638104
 10
-347.4721392175
 20
83.9089222779
 10
-348.922230818
 20
85.0519232979
 10
-350.6792267343
 20
86.4255719414
 10
-352.8069039366
 20
88.0720235934
 10
-355.2226578376
 20
89.9173684945
 10
-357.963853099
 20
91.9787131777
 10
-360.9632258794
 20
94.1914611092
 10
-364.7670266709
 20
96.928528749
 10
-368.8752544603
 20
99.7888960471
 10
-373.3601426265
 20
102.7865477433
 10
-378.1312001428
 20
105.8142327299
 10
-384.1255982897
 20
109.3538396587
 10
-390.51079429
 20
112.7491437426
 10
-397.5386252186
 20
115.973896586
 10
-404.9916235289
 20
118.7152557602
 10
-413.1757277554
 20
120.8149001529
 10
-417.5093127905
 20
121.5055056443
 10
-421.9017439081
 20
121.8952604165
 10
-426.2174473169
 20
121.9652213683
 10
-430.5238873257
 20
121.7278086176
 10
-434.923869141
 20
121.1689554682
 10
-439.2485819316
 20
120.3190863659
 10
-444.4711809537
 20
118.9105205765
 10
-449.5175374231
 20
117.1782978406
 10
-454.5038068226
 20
115.1356690159
 10
-459.2883033237
 20
112.8931411138
 10
-465.7269311628
 20
109.4866686096
 10
-471.7700263044
 20
105.929560267
 10
-477.5731792232
 20
102.2330813637
 10
-482.9460350355
 20
98.595216178
 10
-487.7688517353
 20
95.1770909658
 10
-492.1166380426
 20
91.9847630491
 10
-496.075943627
 20
88.9966108432
 10
-499.4030301949
 20
86.4305787315
 10
-501.1904319307
 20
85.0330956807
 10
-502.6593064448
 20
83.875096642
 10
-503.815733411
 20
82.9577066531
 10
-504.5987000248
 20
82.3336609235
 10
-505.044341602
 20
81.9775008192
 10
-505.044341602
 20
81.9775008192
  0
LINE
  5
AE
330
1F
100
AcDbEntity
  8
0
  6
Continuous
 62
     7
370
    25
100
AcDbLine
 10
-665.5443464896
 20
81.9775008192
 30
0.0
 11
-665.5443464896
 21
281.9775037994
 31
0.0
  0
LINE
  5
AF
330
1F
100
AcDbEntity
  8
0
  6
Continuous
 62
     7
370
    25
100
AcDbLine
 10
-184.5443402907
 20
81.9775008192
 30
0.0
 11
-184.5443402907
 21
281.9775037994
 31
0.0
  0
LINE
  5
B0
330
1F
100
AcDbEntity
  8
0
  6
Continuous
 62
     7
370
    25
100
AcDbLine
 10
-345.0443451783
 20
-45.0224957833
 30
0.0
 11
-505.044341602
 21
-45.0224957833
 31
0.0
  0
LINE
  5
B1
330
1F
100
AcDbEntity
  8
0
  6
Continuous
 62
     7
370
    25
100
AcDbLine
 10
717.4675479363
 20
81.9775008192
 30
0.0
 11
877.9675528239
 21
81.9775008192
 31
0.0
  0
LINE
  5
B2
330
1F
100
AcDbEntity
  8
0
  6
Continuous
 62
     7
370
    25
100
AcDbLine
 10
396.967546625
 20
81.9775008192
 30
0.0
 11
557.5188413094
 21
81.9775008192
 31
0.0
  0
LINE
  5
B3
330
1F
100
AcDbEntity
  8
0
  6
Continuous
 62
     7
370
    25
100
AcDbLine
 10
877.9675528239
 20
281.9775037994
 30
0.0
 11
396.967546625
 21
281.9775037994
 31
0.0
  0
LINE
  5
B4
330
1F
100
AcDbEntity
  8
0
  6
Continuous
 62
     7
370
    25
100
AcDbLine
 10
557.4675515126
 20
82.0185311666
 30
0.0
 11
557.4675515126
 21
-45.0224957833
 31
0.0
  0
LINE
  5
B5
330
1F
100
AcDbEntity
  8
0
  6
Continuous
 62
     7
370
    25
100
AcDbLine
 10
717.4675479363
 20
-45.0224957833
 30
0.0
 11
717.4675479363
 21
81.9775008192
 31
0.0
  0
SPLINE
  5
B6
330
1F
100
AcDbEntity
  8
0
  6
Continuous
 62
     7
370
    25
100
AcDbSpline
210
0.0
220
0.0
230
1.0
 70
     8
 71
     3
 72
    49
 73
    45
 74
     0
 42
0.000000001
 43
0.00000001
 40
0.0
 40
0.0
 40
0.0
 40
0.0
 40
0.0212216716600984
 40
0.0426176338168821
 40
0.0645500794225724
 40
0.0866593971048283
 40
0.1078770360686081
 40
0.1292310116914629
 40
0.1509774268047653
 40
0.1728440306949837
 40
0.2014183099640107
 40
0.2302093824423725
 40
0.2596191118445778
 40
0.289220357180357
 40
0.3182456855630704
 40
0.3474520921365163
 40
0.3772938782576445
 40
0.407412542940091
 40
0.4408743725020848
 40
0.4579521903114074
 40
0.475154170010495
 40
0.4918631015288288
 40
0.5087147179567129
 40
0.5260178470053585
 40
0.543472107431115
 40
0.562907305014734
 40
0.582500912887453
 40
0.6025064474920778
 40
0.6226222231951811
 40
0.651675643416616
 40
0.6809473705579424
 40
0.7108248407220632
 40
0.7408947340711153
 40
0.7706346838239483
 40
0.800585019204571
 40
0.8312755305972719
 40
0.8622659421563251
 40
0.8834911553975048
 40
0.9048436540906636
 40
0.9266286553870524
 40
0.9485782085418518
 40
0.969809099538546
 40
0.9912108703033146
 40
1.0
 40
1.0
 40
1.0
 40
1.0
 10
717.4675479363292
 20
81.97750081921644
 30
0.0
 10
717.4290305190958
 20
82.00833063981766
 30
0.0
 10
717.3516793466943
 20
82.07024348184386
 30
0.0
 10
716.7222554045819
 20
82.57313023022083
 30
0.0
 10
715.7086617565941
 20
83.37987467091546
 30
0.0
 10
714.2966448573693
 20
84.49729517547985
 30
0.0
 10
712.5377842198625
 20
85.87821210247368
 30
0.0
 10
710.4576740182865
 20
87.49531873634926
 30
0.0
 10
708.0426221584975
 20
89.3496912587013
 30
0.0
 10
705.0328135334472
 20
91.62556264790793
 30
0.0
 10
701.3455313030249
 20
94.35542802172968
 30
0.0
 10
696.8747417708578
 20
97.56473044872281
 30
0.0
 10
691.9423487649464
 20
100.9673271963881
 30
0.0
 10
686.6072717666436
 20
104.4619609721408
 30
0.0
 10
680.912565163228
 20
107.9502077146877
 30
0.0
 10
674.8349183904754
 20
111.3599025462606
 30
0.0
 10
668.2982092829446
 20
114.6095924247137
 30
0.0
 10
661.0339639119652
 20
117.6450772757441
 30
0.0
 10
654.3757068588841
 20
119.748870927272
 30
0.0
 10
648.5728292330796
 20
121.0108325467534
 30
0.0
 10
644.1159717398764
 20
121.6651251064049
 30
0.0
 10
639.6228708519435
 20
121.9943081647249
 30
0.0
 10
635.1015896817869
 20
121.9883537430091
 30
0.0
 10
630.5351264277872
 20
121.63574312946
 30
0.0
 10
625.8044721575832
 20
120.9148772044142
 30
0.0
 10
620.9814316621516
 20
119.8143132830227
 30
0.0
 10
616.0906077795248
 20
118.3375137650986
 30
0.0
 10
611.3131581304815
 20
116.5725906964511
 30
0.0
 10
605.9856150122463
 20
114.2812789181985
 30
0.0
 10
600.2293543293397
 20
111.4270008239572
 30
0.0
 10
594.1320813012946
 20
108.0163982972549
 30
0.0
 10
588.342356772361
 20
104.472906387988
 30
0.0
 10
582.9106764493454
 20
100.9127938415044
 30
0.0
 10
577.8774928890446
 20
97.43692830508425
 30
0.0
 10
573.2416561331462
 20
94.10301010683874
 30
0.0
 10
569.0278004130599
 20
90.9735792668865
 30
0.0
 10
565.7116958566844
 20
88.44785792408639
 30
0.0
 10
563.1883301096339
 20
86.49525126830804
 30
0.0
 10
561.3013158184809
 20
85.01916753668327
 30
0.0
 10
559.7480973151069
 20
83.79360174685506
 30
0.0
 10
558.5709126531768
 20
82.85852629335443
 30
0.0
 10
557.8188299276331
 20
82.25849715723281
 30
0.0
 10
557.4618501824466
 20
81.97294578575735
 30
0.0
 10
557.5059910780584
 20
82.00825267723073
 30
0.0
 10
557.5188413094371
 20
82.0185311665637
 30
0.0
  0
LINE
  5
B7
330
1F
100
AcDbEntity
  8
0
  6
Continuous
 62
     7
370
    25
100
AcDbLine
 10
877.9675528239
 20
281.9775037994
 30
0.0
 11
877.9675528239
 21
81.9775008192
 31
0.0
  0
LINE
  5
B8
330
1F
100
AcDbEntity
  8
0
  6
Continuous
 62
     7
370
    25
100
AcDbLine
 10
396.967546625
 20
281.9775037994
 30
0.0
 11
396.967546625
 21
81.9775008192
 31
0.0
  0
LINE
  5
B9
330
1F
100
AcDbEntity
  8
0
  6
Continuous
 62
     7
370
    25
100
AcDbLine
 10
717.4675479363
 20
-45.0224957833
 30
0.0
 11
557.4675515126
 21
-45.0224957833
 31
0.0
  0
LINE
  5
BA
330
1F
100
AcDbEntity
  8
0
  6
Continuous
 62
     7
370
    25
100
AcDbLine
 10
40.2388260752
 20
-157.4603307459
 30
0.0
 11
40.2388260752
 21
-638.4603369448
 31
0.0
  0
LINE
  5
BB
330
1F
100
AcDbEntity
  8
0
  6
Continuous
 62
     7
370
    25
100
AcDbLine
 10
240.2388290554
 20
-638.4603369448
 30
0.0
 11
240.2388290554
 21
-157.4603307459
 31
0.0
  0
LINE
  5
BC
330
1F
100
AcDbEntity
  8
0
  6
Continuous
 62
     7
370
    25
100
AcDbLine
 10
240.2388290554
 20
-638.4603369448
 30
0.0
 11
40.2388260752
 21
-638.4603369448
 31
0.0
  0
LINE
  5
BD
330
1F
100
AcDbEntity
  8
0
  6
Continuous
 62
     7
370
    25
100
AcDbLine
 10
240.2388290554
 20
-157.4603307459
 30
0.0
 11
40.2388260752
 21
-157.4603307459
 31
0.0
  0
LINE
  5
BE
330
1F
100
AcDbEntity
  8
0
  6
Continuous
 62
     7
370
    25
100
AcDbLine
 10
826.7847507639
 20
-333.6871236763
 30
0.0
 11
486.6663846299
 21
-137.3409702525
 31
0.0
  0
LINE
  5
BF
330
1F
100
AcDbEntity
  8
0
  6
Continuous
 62
     7
370
    25
100
AcDbLine
 10
686.7296351973
 20
-483.7688779086
 30
0.0
 11
726.792880495
 21
-506.8968971253
 31
0.0
  0
LINE
  5
C0
330
1F
100
AcDbEntity
  8
0
  6
Continuous
 62
     7
370
    25
100
AcDbLine
 10
386.674514361
 20
-310.5507437015
 30
0.0
 11
526.729635196
 21
-391.4028439742
 31
0.0
  0
LINE
  5
C1
330
1F
100
AcDbEntity
  8
0
  6
Continuous
 62
     7
370
    25
100
AcDbLine
 10
526.729635196
 20
-389.4381810884
 30
0.0
 11
526.729635196
 21
-507.4736964295
 31
0.0
  0
LINE
  5
C2
330
1F
100
AcDbEntity
  8
0
  6
Continuous
 62
     7
370
    25
100
AcDbLine
 10
686.7296299289
 20
-507.4736964295
 30
0.0
 11
686.7296299289
 21
-389.448249617
 31
0.0
  0
SPLINE
  5
C3
330
1F
100
AcDbEntity
  8
0
  6
Continuous
 62
     7
370
    25
100
AcDbSpline
210
0.0
220
0.0
230
1.0
 70
     8
 71
     3
 72
    18
 73
    14
 74
     0
 42
0.000000001
 43
0.00000001
 40
0.0
 40
0.0
 40
0.0
 40
0.0
 40
0.0858538571662524
 40
0.173138815169017
 40
0.2611421703026723
 40
0.3505870657255291
 40
0.436424608317733
 40
0.5233474644816637
 40
0.6107904421012031
 40
0.6992534207567275
 40
0.8148528009697508
 40
0.9321740382959113
 40
1.0
 40
1.0
 40
1.0
 40
1.0
 10
550.1610913319413
 20
-371.1166923512274
 30
0.0
 10
548.8559635665189
 20
-371.8764019687103
 30
0.0
 10
546.2239528169979
 20
-373.4084848288755
 30
0.0
 10
542.6509105252399
 20
-375.5747016454499
 30
0.0
 10
539.3612318030528
 20
-377.642854164755
 30
0.0
 10
536.4685915815278
 20
-379.5524349742258
 30
0.0
 10
533.9637196644865
 20
-381.3074933045637
 30
0.0
 10
531.8496622683288
 20
-382.9058262997148
 30
0.0
 10
530.0922272063074
 20
-384.3784838922075
 30
0.0
 10
528.5528020791631
 20
-385.8633986097117
 30
0.0
 10
527.399896052431
 20
-387.3200253545463
 30
0.0
 10
526.7675196352751
 20
-388.5411863016158
 30
0.0
 10
526.7946359823244
 20
-389.1978890066139
 30
0.0
 10
526.8045696584812
 20
-389.4384624139
 30
0.0
  0
SPLINE
  5
C4
330
1F
100
AcDbEntity
  8
0
  6
Continuous
 62
     7
370
    25
100
AcDbSpline
210
0.0
220
0.0
230
1.0
 70
     8
 71
     3
 72
    38
 73
    34
 74
     0
 42
0.000000001
 43
0.00000001
 40
0.0
 40
0.0
 40
0.0
 40
0.0
 40
0.0032758518711037
 40
0.0368260724538633
 40
0.0707009920692344
 40
0.1104712191193468
 40
0.1505154661461898
 40
0.1915699180089745
 40
0.2330935659375249
 40
0.2653494846267438
 40
0.2980303488349342
 40
0.3201621099528749
 40
0.3416093308732614
 40
0.3634046785249128
 40
0.3853752178633119
 40
0.4076876106589569
 40
0.4351406599579573
 40
0.4630100536185598
 40
0.4910624913376987
 40
0.5194595586058904
 40
0.5594527009709195
 40
0.5997385257935836
 40
0.6408753265615132
 40
0.6822988572741947
 40
0.7225788781629512
 40
0.7631790693840088
 40
0.8049326253142741
 40
0.8471626387292762
 40
0.8743730227491154
 40
0.9019372415902568
 40
0.9296899552340906
 40
0.9578388632614837
 40
1.0
 40
1.0
 40
1.0
 40
1.0
 10
686.70944949101
 20
-389.4478952989206
 30
0.0
 10
686.7160393992269
 20
-389.256994636693
 30
0.0
 10
686.7901210265433
 20
-387.1109508302873
 30
0.0
 10
686.499615165706
 20
-382.9431755789213
 30
0.0
 10
685.7667410970831
 20
-376.6535292399128
 30
0.0
 10
684.3790984487907
 20
-370.0416674831608
 30
0.0
 10
682.2703012175921
 20
-363.1822582058535
 30
0.0
 10
679.4316460354848
 20
-356.513658314954
 30
0.0
 10
676.075079150829
 20
-350.6988059917097
 30
0.0
 10
672.3595700045685
 20
-345.8429598540633
 30
0.0
 10
668.8834420932465
 20
-342.3728942740283
 30
0.0
 10
665.5387774157585
 20
-339.7943188816979
 30
0.0
 10
662.4849142547015
 20
-337.9273632403471
 30
0.0
 10
659.2781209573997
 20
-336.4233322440991
 30
0.0
 10
655.8925068355593
 20
-335.2697091248851
 30
0.0
 10
652.0980822733079
 20
-334.4107733214659
 30
0.0
 10
647.8788352587989
 20
-333.9277299120099
 30
0.0
 10
643.2507590433997
 20
-333.8816647684388
 30
0.0
 10
638.4951892973593
 20
-334.2519172170536
 30
0.0
 10
632.9863514900051
 20
-335.0859336561712
 30
0.0
 10
626.6947696945618
 20
-336.5016355812583
 30
0.0
 10
619.5709847132204
 20
-338.5817236670675
 30
0.0
 10
612.2739280943806
 20
-341.1004887759432
 30
0.0
 10
604.8996518326027
 20
-343.9605959039523
 30
0.0
 10
597.5023254104249
 20
-347.0811848989082
 30
0.0
 10
590.0612635224252
 20
-350.4273039495707
 30
0.0
 10
582.5254491570545
 20
-353.996784566152
 30
0.0
 10
575.8810412499378
 20
-357.2856007880063
 30
0.0
 10
570.2077431473164
 20
-360.1842543928057
 30
0.0
 10
565.4897700572561
 20
-362.6523103601242
 30
0.0
 10
560.8720626584922
 20
-365.1259628554301
 30
0.0
 10
555.6382503004613
 20
-367.991176515732
 30
0.0
 10
552.2142683780211
 20
-369.9450562151428
 30
0.0
 10
550.1610913319413
 20
-371.1166923512274
 30
0.0
  0
LWPOLYLINE
  5
C5
330
1F
100
AcDbEntity
  8
0
  6
Continuous
 62
     7
370
    25
100
AcDbPolyline
 90
      107
 70
   128
 43
0.0
 10
436.6704494955
 20
-305.5999393823
 10
440.8593944759
 20
-303.0383078683
 10
445.0336255964
 20
-300.1988592482
 10
449.1784803635
 20
-297.0915667576
 10
453.2794016508
 20
-293.7273526998
 10
457.3219811631
 20
-290.1180268522
 10
461.2920219979
 20
-286.2762686015
 10
465.1755801336
 20
-282.215572574
 10
468.9590131624
 20
-277.9501961689
 10
472.6290290218
 20
-273.4951375091
 10
476.172741313
 20
-268.8660305024
 10
479.5776982763
 20
-264.0791402817
 10
482.8319433777
 20
-259.1512795595
 10
485.9240469187
 20
-254.0997538779
 10
488.8431429149
 20
-248.942315984
 10
491.5789791455
 20
-243.6970821836
 10
494.1219461289
 20
-238.3824669444
 10
496.4631140016
 20
-233.0171433553
 10
498.5942588598
 20
-227.619957957
 10
500.5078943696
 20
-222.209863824
 10
502.1972981086
 20
-216.8058688559
 10
503.6565379079
 20
-211.4269506081
 10
504.880487657
 20
-206.0920076234
 10
505.864843109
 20
-200.8197788244
 10
506.6061534908
 20
-195.6287788773
 10
507.101810966
 20
-190.5372449585
 10
507.3500717088
 20
-185.5630616608
 10
507.3500717088
 20
-180.7236974961
 10
507.101810966
 20
-176.0361499507
 10
506.6061534908
 20
-171.5168899716
 10
505.864843109
 20
-167.181788773
 10
504.880487657
 20
-163.0460725875
 10
503.6565379079
 20
-159.1242719035
 10
502.1972981086
 20
-155.430156066
 10
500.5078943696
 20
-151.9767051365
 10
498.5942588598
 20
-148.7760475339
 10
496.4631140016
 20
-145.8394296142
 10
494.1219461289
 20
-143.1771609148
 10
491.5789791455
 20
-140.7985928592
 10
488.8431429149
 20
-138.7120883351
 10
485.9240469187
 20
-136.9249669392
 10
482.8319433777
 20
-135.4435080151
 10
479.5776982763
 20
-134.2729187112
 10
476.172741313
 20
-133.4173081207
 10
472.6290290218
 20
-132.8796842357
 10
468.9590131624
 20
-132.6619356935
 10
465.1755801336
 20
-132.7648180824
 10
461.2920219979
 20
-133.1879828368
 10
457.3219811631
 20
-133.9299361668
 10
453.2794016508
 20
-134.9880732744
 10
449.1784803635
 20
-136.3586821514
 10
445.0336255964
 20
-138.0369371116
 10
440.8593944759
 20
-140.016953158
 10
436.6704494955
 20
-142.2917745717
 10
432.481504515
 20
-144.8534060857
 10
428.3072733945
 20
-147.6928547058
 10
424.1624186274
 20
-150.8001471964
 10
420.0614973401
 20
-154.1643612542
 10
416.0189178278
 20
-157.7736871018
 10
412.0488769931
 20
-161.6154453526
 10
408.1653188573
 20
-165.67614138
 10
404.3818858285
 20
-169.9415177851
 10
400.7118699691
 20
-174.3965764449
 10
397.1681576779
 20
-179.0256834516
 10
393.7632007146
 20
-183.8125736724
 10
390.5089556132
 20
-188.7404343945
 10
387.4168520722
 20
-193.7919600761
 10
384.497756076
 20
-198.9493979701
 10
381.7619198455
 20
-204.1946317705
 10
379.2189528621
 20
-209.5092470096
 10
376.8777849893
 20
-214.8745705987
 10
374.7466401311
 20
-220.271755997
 10
372.8330046213
 20
-225.6818501301
 10
371.1436008823
 20
-231.0858450981
 10
369.684361083
 20
-236.4647633459
 10
368.4604113339
 20
-241.7997063306
 10
367.4760558819
 20
-247.0719351296
 10
366.7347455001
 20
-252.2629350767
 10
366.2390880249
 20
-257.3544689955
 10
365.9908272821
 20
-262.3286522933
 10
365.9908272821
 20
-267.168016458
 10
366.2390880249
 20
-271.8555640033
 10
366.7347455001
 20
-276.3748239824
 10
367.4760558819
 20
-280.709925181
 10
368.4604113339
 20
-284.8456413665
 10
369.684361083
 20
-288.7674420505
 10
371.1436008823
 20
-292.461557888
 10
372.8330046213
 20
-295.9150088175
 10
374.7466401311
 20
-299.1156664201
 10
376.8777849893
 20
-302.0522843398
 10
379.2189528621
 20
-304.7145530392
 10
381.7619198455
 20
-307.0931210948
 10
384.497756076
 20
-309.1796256189
 10
387.4168520722
 20
-310.9667470148
 10
390.5089556132
 20
-312.448205939
 10
393.7632007146
 20
-313.6187952428
 10
397.1681576779
 20
-314.4744058333
 10
400.7118699691
 20
-315.0120297184
 10
404.3818858285
 20
-315.2297782606
 10
408.1653188573
 20
-315.1268958716
 10
412.0488769931
 20
-314.7037311172
 10
416.0189178278
 20
-313.9617777872
 10
420.0614973401
 20
-312.9036406797
 10
424.1624186274
 20
-311.5330318026
 10
428.3072733945
 20
-309.8547768424
 10
432.481504515
 20
-307.874760796
 10
436.6704494955
 20
-305.5999393823
  0
LWPOLYLINE
  5
C6
330
1F
100
AcDbEntity
  8
0
  6
Continuous
 62
     7
370
    25
100
AcDbPolyline
 90
       41
 70
   128
 43
0.0
 10
776.7888156295
 20
-501.9460928061
 10
780.9777606099
 20
-499.3844612921
 10
785.1519917304
 20
-496.545012672
 10
789.2968464975
 20
-493.4377201814
 10
793.3977677849
 20
-490.0735061236
 10
797.4403472971
 20
-486.464180276
 10
801.4103881319
 20
-482.6224220252
 10
805.2939462676
 20
-478.5617259978
 10
809.0773792964
 20
-474.2963495927
 10
812.7473951558
 20
-469.8412909329
 10
816.291107447
 20
-465.2121839262
 10
819.6960644103
 20
-460.4252937054
 10
822.9503095117
 20
-455.4974329833
 10
826.0424130527
 20
-450.4459073017
 10
828.9615090489
 20
-445.2884694077
 10
831.6973452795
 20
-440.0432356073
 10
834.2403122629
 20
-434.7286203682
 10
836.5814801356
 20
-429.3632967791
 10
838.7126249938
 20
-423.9661113807
 10
840.6262605036
 20
-418.5560172477
 10
842.3156642426
 20
-413.1520222797
 10
843.7749040419
 20
-407.7731040319
 10
844.998853791
 20
-402.4381610472
 10
845.983209243
 20
-397.1659322481
 10
846.7245196248
 20
-391.9749323011
 10
847.2201771
 20
-386.8833983823
 10
847.4684378428
 20
-381.9092150845
 10
847.4684378428
 20
-377.0698509198
 10
847.2201771
 20
-372.3823033745
 10
846.7245196248
 20
-367.8630433954
 10
845.983209243
 20
-363.5279421967
 10
844.998853791
 20
-359.3922260113
 10
843.7749040419
 20
-355.4704253273
 10
842.3156642426
 20
-351.7763094897
 10
840.6262605036
 20
-348.3228585603
 10
838.7126249938
 20
-345.1222009577
 10
836.5814801356
 20
-342.185583038
 10
834.2403122629
 20
-339.5233143386
 10
831.6973452795
 20
-337.144746283
 10
828.9615090489
 20
-335.0582417589
 10
826.7847507639
 20
-333.6871236763
  0
LWPOLYLINE
  5
C7
330
1F
100
AcDbEntity
  8
0
  6
Continuous
 62
     7
370
    25
100
AcDbPolyline
 90
       15
 70
   128
 43
0.0
 10
726.792880495
 20
-506.8968971253
 10
727.5352182062
 20
-507.3129004386
 10
730.6273217472
 20
-508.7943593627
 10
733.8815668486
 20
-509.9649486666
 10
737.2865238119
 20
-510.8205592571
 10
740.8302361031
 20
-511.3581831421
 10
744.5002519625
 20
-511.5759316843
 10
748.2836849913
 20
-511.4730492954
 10
752.1672431271
 20
-511.049884541
 10
756.1372839618
 20
-510.307931211
 10
760.1798634741
 20
-509.2497941034
 10
764.2807847614
 20
-507.8791852264
 10
768.4256395285
 20
-506.2009302662
 10
772.599870649
 20
-504.2209142197
 10
776.7888156295
 20
-501.9460928061
  0
LWPOLYLINE
  5
C8
330
1F
100
AcDbEntity
  8
0
  6
Continuous
 62
     7
370
    25
100
AcDbPolyline
 90
      100
 70
   128
 43
0.0
 10
436.6704494955
 20
-295.883103497
 10
440.6215127238
 20
-293.4573685252
 10
444.556666834
 20
-290.7517383702
 10
448.4600649401
 20
-287.7771011836
 10
452.3159918654
 20
-284.5454432377
 10
456.1089184718
 20
-281.0697688919
 10
459.8235731122
 20
-277.3640775955
 10
463.4449989236
 20
-273.443288227
 10
466.9586130966
 20
-269.3231866277
 10
470.3502674609
 20
-265.0203723749
 10
473.6063064375
 20
-260.5521644901
 10
476.7136144541
 20
-255.9365558156
 10
479.6596844334
 20
-251.1921308907
 10
482.4326546716
 20
-246.3379959932
 10
485.0213509856
 20
-241.3936970126
 10
487.4153604697
 20
-236.3791403695
 10
489.6050367638
 20
-231.3145169693
 10
491.5815606399
 20
-226.2202276831
 10
493.3369821488
 20
-221.1167768862
 10
494.8642258881
 20
-216.0247177057
 10
496.1571436865
 20
-210.9645531652
 10
497.2105251397
 20
-205.9566631813
 10
498.0201397578
 20
-201.0212064678
 10
498.5827158917
 20
-196.1780612177
 10
498.895998685
 20
-191.4467239671
 10
498.9587131956
 20
-186.8462539826
 10
498.7706223474
 20
-182.3951665172
 10
498.332474247
 20
-178.1113900291
 10
497.6460337937
 20
-174.0121735982
 10
496.714061606
 20
-170.1140248515
 10
495.5403245585
 20
-166.432632492
 10
494.1295325616
 20
-162.9828305508
 10
492.4873754398
 20
-159.7785025722
 10
490.6204597116
 20
-156.8325557524
 10
488.5363085894
 20
-154.1568509765
 10
486.2433145645
 20
-151.7621571867
 10
483.7507077967
 20
-149.658124002
 10
481.0685245044
 20
-147.853223921
 10
478.2075621831
 20
-146.3547234192
 10
475.1793479961
 20
-145.1686494862
 10
471.9960729192
 20
-144.2997850565
 10
468.6705522287
 20
-143.7516279411
 10
465.2161780855
 20
-143.5263816971
 10
461.6468615838
 20
-143.6249647481
 10
457.976973482
 20
-144.0469655111
 10
454.2212915188
 20
-144.7906910615
 10
450.3949385103
 20
-145.8531481155
 10
446.5133211052
 20
-147.2300540509
 10
442.5920711745
 20
-148.9158707427
 10
438.6469761704
 20
-150.9038021797
 10
434.6939228205
 20
-153.1858513038
 10
430.7488278164
 20
-155.7528296046
 10
426.8275778857
 20
-158.5943917148
 10
422.9459604806
 20
-161.6991058413
 10
419.1196074721
 20
-165.0544619352
 10
415.3639255089
 20
-168.6469544805
 10
411.6940374071
 20
-172.4621163293
 10
408.1247209055
 20
-176.4845783922
 10
404.6703467623
 20
-180.6981601278
 10
401.3448260717
 20
-185.0858817052
 10
398.1615509948
 20
-189.6300773069
 10
395.1333368078
 20
-194.3124529194
 10
392.2723744866
 20
-199.1141502068
 10
389.5901911942
 20
-204.0158332003
 10
387.0975844264
 20
-208.9977689012
 10
384.8045904015
 20
-214.0398972399
 10
382.7204392794
 20
-219.1219116817
 10
380.8535235511
 20
-224.2233535203
 10
379.2113664293
 20
-229.3236757543
 10
377.8005744324
 20
-234.4023434638
 10
376.6268373849
 20
-239.4389037728
 10
375.6948651972
 20
-244.4130847034
 10
375.0084247439
 20
-249.3048484119
 10
374.5702766435
 20
-254.0944999289
 10
374.3821857953
 20
-258.7627524651
 10
374.4449003059
 20
-263.2908138169
 10
374.7581830992
 20
-267.6604424536
 10
375.3207592332
 20
-271.8540511252
 10
376.1303738513
 20
-275.8547466975
 10
377.1837553045
 20
-279.6464283433
 10
378.4766731028
 20
-283.2138217683
 10
380.0039168422
 20
-286.5425628607
 10
381.759338351
 20
-289.6192471244
 10
383.7358622271
 20
-292.431490518
 10
385.9255385212
 20
-294.9679674821
 10
388.3195480053
 20
-297.2184596097
 10
390.9082443193
 20
-299.1739134455
 10
393.6812145576
 20
-300.826445054
 10
396.6272845368
 20
-302.1694099828
 10
399.7345925534
 20
-303.1973971861
 10
402.9906315301
 20
-303.9062624883
 10
406.3822858943
 20
-304.2931559649
 10
409.8959000673
 20
-304.3565249901
 10
413.5173258787
 20
-304.0961051162
 10
417.2319805191
 20
-303.5129474555
 10
421.0249071255
 20
-302.6094019559
 10
424.8808340508
 20
-301.3891014365
 10
428.7842321569
 20
-299.8569710989
 10
432.7193862671
 20
-298.019169028
 10
436.6704494955
 20
-295.883103497
  0
LWPOLYLINE
  5
C9
330
1F
100
AcDbEntity
  8
0
  6
Continuous
 62
     7
370
    25
100
AcDbPolyline
 90
       90
 70
   128
 43
0.0
 10
656.5806615633
 20
-536.2520829066
 10
659.9729208007
 20
-534.1503976706
 10
663.0999275299
 20
-531.9158119673
 10
665.9461042099
 20
-529.559459635
 10
668.4972601942
 20
-527.0930728995
 10
670.7406974278
 20
-524.5289456869
 10
672.6652318492
 20
-521.8798482759
 10
674.2612829529
 20
-519.1589816776
 10
675.5208889359
 20
-516.3798989402
 10
676.4377830885
 20
-513.5564458423
 10
677.007395112
 20
-510.7026901817
 10
677.2268879965
 20
-507.8328457414
 10
677.095165924
 20
-504.9612129831
 10
676.6128848048
 20
-502.1020969305
 10
675.7824522777
 20
-499.2697433007
 10
674.6079987338
 20
-496.4782609498
 10
673.0953799509
 20
-493.7415564838
 10
671.2521296781
 20
-491.0732643071
 10
669.0874332943
 20
-488.4866797128
 10
666.612071173
 20
-485.9946866503
 10
663.8383811456
 20
-483.6096995597
 10
660.7801758539
 20
-481.3436034947
 10
657.4526908897
 20
-479.2076876882
 10
653.8725092268
 20
-477.2125897623
 10
650.0574634275
 20
-475.3682514385
 10
646.0265592508
 20
-473.6838622727
 10
641.7998855969
 20
-472.1678076669
 10
637.3984875728
 20
-470.827650336
 10
632.8442993202
 20
-469.6700611169
 10
628.160014283
 20
-468.7008049022
 10
623.3689581076
 20
-467.9247159292
 10
618.495009618
 20
-467.3456552009
 10
613.5624427646
 20
-466.9665135273
 10
608.5958370626
 20
-466.7891750293
 10
603.6199353464
 20
-466.814523221
 10
598.6595252312
 20
-467.0424364483
 10
593.7393205753
 20
-467.4717742021
 10
588.8838324052
 20
-468.100399929
 10
584.1172477438
 20
-468.925181031
 10
579.4633202913
 20
-469.942009395
 10
574.9452334487
 20
-471.1458196404
 10
570.5854949501
 20
-472.5306134505
 10
566.4058235934
 20
-474.0894915065
 10
562.4270405803
 20
-475.8146858018
 10
558.6689763324
 20
-477.6976073535
 10
555.1503447088
 20
-479.7288701531
 10
551.8886755059
 20
-481.8983544647
 10
548.900227529
 20
-484.1952570072
 10
546.1998789449
 20
-486.608129922
 10
543.8010857935
 20
-489.1249533851
 10
541.7157993406
 20
-491.7331894015
 10
539.9544101015
 20
-494.4198445328
 10
538.5256925231
 20
-497.1715352864
 10
537.4367628373
 20
-499.9745489432
 10
536.693047451
 20
-502.814922632
 10
536.2982473843
 20
-505.6785064384
 10
536.2543382707
 20
-508.5510333557
 10
536.5615308444
 20
-511.4181937982
 10
537.2182946481
 20
-514.2657040317
 10
538.221365935
 20
-517.0793746042
 10
539.5657371329
 20
-519.8451924621
 10
541.2447200636
 20
-522.549372654
 10
543.2499406752
 20
-525.1784495707
 10
545.5714127988
 20
-527.7193225661
 10
548.1975809538
 20
-530.1593293294
 10
551.1153447145
 20
-532.4863207792
 10
554.3101785646
 20
-534.6886998402
 10
557.7661640016
 20
-536.7554947212
 10
561.4660795927
 20
-538.6764109032
 10
565.3914984393
 20
-540.4418752392
 10
569.5228648978
 20
-542.0430924091
 10
573.8395912204
 20
-543.4720885447
 10
578.3201726362
 20
-544.7217411675
 10
582.9422910719
 20
-545.7858269003
 10
587.6829159088
 20
-546.6590431367
 10
592.5184291068
 20
-547.337040736
 10
597.4247411078
 20
-547.8164392296
 10
602.377412008
 20
-548.0948541935
 10
607.3517648275
 20
-548.1708957273
 10
612.3230198537
 20
-548.0441851822
 10
617.2664052763
 20
-547.7153551604
 10
622.1572994332
 20
-547.1860434328
 10
626.9713335436
 20
-546.4588883768
 10
631.6845234163
 20
-545.5375076868
 10
636.2733919397
 20
-544.4264976138
 10
640.7150718144
 20
-543.131388866
 10
644.9874418717
 20
-541.6586378646
 10
649.0692060992
 20
-540.0155750409
 10
652.9400414844
 20
-538.2103924805
 10
656.5806615633
 20
-536.2520829066
  0
LWPOLYLINE
  5
CA
330
1F
100
AcDbEntity
  8
0
  6
Continuous
 62
     7
370
    25
100
AcDbPolyline
 90
       95
 70
   128
 43
0.0
 10
663.298173793
 20
-540.1300201725
 10
666.9502110581
 20
-537.8758926085
 10
670.3332875508
 20
-535.4859809903
 10
673.4323005408
 20
-532.9709625727
 10
676.233397215
 20
-530.3420643357
 10
678.7240731303
 20
-527.6110304803
 10
680.8932081041
 20
-524.7900591298
 10
682.7311083613
 20
-521.891747586
 10
684.2295684373
 20
-518.9290444272
 10
685.3818922515
 20
-515.9151765158
 10
686.1829378885
 20
-512.863604899
 10
686.6291255003
 20
-509.7879655019
 10
686.7184636482
 20
-506.7019870109
 10
686.4505519373
 20
-503.6194558983
 10
685.8265862844
 20
-500.5541373469
 10
684.8493562839
 20
-497.5197250676
 10
683.5232215006
 20
-494.5297698274
 10
681.8541114691
 20
-491.5976216638
 10
679.8494756451
 20
-488.7363827438
 10
677.5182662824
 20
-485.9588305694
 10
674.8709028723
 20
-483.2773670349
 10
671.9192003619
 20
-480.703970906
 10
668.6763447877
 20
-478.2501350913
 10
665.1568213303
 20
-475.9268190267
 10
661.3763481298
 20
-473.7443983022
 10
657.3518105967
 20
-471.7126206578
 10
653.1011817279
 20
-469.8405599828
 10
648.6434458796
 20
-468.1365783938
 10
643.9985115109
 20
-466.6082880277
 10
639.1871287008
 20
-465.2625095083
 10
634.2307804881
 20
-464.1052578799
 10
629.1516005538
 20
-463.1417011686
 10
623.9722849757
 20
-462.3761398536
 10
618.7159592029
 20
-461.8119969825
 10
613.4060963958
 20
-461.4517892783
 10
608.0664173276
 20
-461.2971271396
 10
602.7207665777
 20
-461.3487009547
 10
597.3930256043
 20
-461.6062795802
 10
592.1069757666
 20
-462.0687133833
 10
586.886237739
 20
-462.7339357616
 10
581.7541292655
 20
-463.5989783505
 10
576.7335624266
 20
-464.659975585
 10
571.8469672482
 20
-465.9121905512
 10
567.1161652611
 20
-467.3500271519
 10
562.5622865245
 20
-468.9670658423
 10
558.2056747952
 20
-470.756087961
 10
554.0657778804
 20
-472.7090964493
 10
550.1610913319
 20
-474.8173726865
 10
546.5090540669
 20
-477.0715002505
 10
543.1259775741
 20
-479.4614118687
 10
540.0269645841
 20
-481.9764302864
 10
537.2258679099
 20
-484.6053285234
 10
534.7351919946
 20
-487.3363623788
 10
532.5660570208
 20
-490.1573337292
 10
530.7281567636
 20
-493.055645273
 10
529.2296966876
 20
-496.0183484319
 10
528.0773728734
 20
-499.0322163432
 10
527.2763272364
 20
-502.08378796
 10
526.8301396246
 20
-505.1594273571
 10
526.7408014767
 20
-508.2454058481
 10
527.0087131876
 20
-511.3279369607
 10
527.6326788406
 20
-514.3932555121
 10
528.609908841
 20
-517.4276677915
 10
529.9360436243
 20
-520.4176230317
 10
531.6051536558
 20
-523.3497711952
 10
533.6097894799
 20
-526.2110101152
 10
535.9409988425
 20
-528.9885622897
 10
538.5883622526
 20
-531.6700258242
 10
541.5400647631
 20
-534.2434219531
 10
544.7829203372
 20
-536.6972577677
 10
548.3024437947
 20
-539.0205738324
 10
552.0829169951
 20
-541.2029945569
 10
556.1074545282
 20
-543.2347722013
 10
560.3580833971
 20
-545.1068328763
 10
564.8158192453
 20
-546.8108144653
 10
569.460753614
 20
-548.3391048314
 10
574.2721364242
 20
-549.6848833507
 10
579.2284846368
 20
-550.8421349792
 10
584.3076645712
 20
-551.8056916905
 10
589.4869801492
 20
-552.5712530054
 10
594.743305922
 20
-553.1353958766
 10
600.0531687291
 20
-553.4956035808
 10
605.3928477973
 20
-553.6502657194
 10
610.7384985472
 20
-553.5986919044
 10
616.0662395206
 20
-553.3411132788
 10
621.3522893583
 20
-552.8786794758
 10
626.5730273859
 20
-552.2134570975
 10
631.7051358594
 20
-551.3484145086
 10
636.7257026983
 20
-550.2874172741
 10
641.6122978768
 20
-549.0352023078
 10
646.3430998638
 20
-547.5973657071
 10
650.8969786005
 20
-545.9803270168
 10
655.2535903297
 20
-544.191304898
 10
659.3934872445
 20
-542.2382964097
 10
663.298173793
 20
-540.1300201725
  0
ENDSEC
  0
SECTION
  2
OBJECTS
  0
DICTIONARY
  5
C
330
0
100
AcDbDictionary
281
     1
  3
ACAD_GROUP
350
D
  3
ACAD_LAYOUT
350
1A
  3
ACAD_MLINESTYLE
350
17
  3
ACAD_PLOTSETTINGS
350
19
  3
ACAD_PLOTSTYLENAME
350
E
  3
ACAD_SCALELIST
350
47
  0
DICTIONARY
  5
D
102
{ACAD_REACTORS
330
C
102
}
330
C
100
AcDbDictionary
281
     1
  0
DICTIONARY
  5
1A
102
{ACAD_REACTORS
330
C
102
}
330
C
100
AcDbDictionary
281
     1
  3
Layout1
350
1E
  3
Layout2
350
26
  3
Model
350
22
  0
DICTIONARY
  5
17
102
{ACAD_REACTORS
330
C
102
}
330
C
100
AcDbDictionary
281
     1
  3
Standard
350
18
  0
DICTIONARY
  5
19
102
{ACAD_REACTORS
330
C
102
}
330
C
100
AcDbDictionary
281
     1
  0
ACDBDICTIONARYWDFLT
  5
E
102
{ACAD_REACTORS
330
C
102
}
330
C
100
AcDbDictionary
281
     1
  3
Normal
350
F
100
AcDbDictionaryWithDefault
340
F
  0
DICTIONARY
  5
47
102
{ACAD_REACTORS
330
C
102
}
330
C
100
AcDbDictionary
281
     1
  3
A0
350
48
  3
A1
350
49
  3
A2
350
4A
  3
A3
350
4B
  3
A4
350
4C
  3
A5
350
4D
  3
A6
350
4E
  3
A7
350
4F
  3
A8
350
50
  3
A9
350
51
  3
B0
350
52
  3
B1
350
53
  3
B2
350
54
  3
B3
350
55
  3
B4
350
56
  3
B5
350
57
  3
B6
350
58
  3
B7
350
59
  3
B8
350
5A
  3
B9
350
5B
  3
C0
350
5C
  3
C1
350
5D
  3
C2
350
5E
  3
C3
350
5F
  3
C4
350
60
  3
C5
350
61
  3
C6
350
62
  3
C7
350
63
  3
C8
350
64
  3
C9
350
65
  3
D0
350
66
  3
D1
350
67
  3
D2
350
68
  0
LAYOUT
  5
1E
102
{ACAD_REACTORS
330
1A
102
}
330
1A
100
AcDbPlotSettings
  1

  2
none_device
  4

  6

 40
0.0
 41
0.0
 42
0.0
 43
0.0
 44
0.0
 45
0.0
 46
0.0
 47
0.0
 48
0.0
 49
0.0
140
0.0
141
0.0
142
1.0
143
1.0
 70
   688
 72
     1
 73
     0
 74
     5
  7

 75
    16
147
1.0
148
0.0
149
0.0
100
AcDbLayout
  1
Layout1
 70
     1
 71
     1
 10
0.0
 20
0.0
 11
420.0
 21
297.0
 12
0.0
 22
0.0
 32
0.0
 14
1.0000000000E+20
 24
1.0000000000E+20
 34
1.0000000000E+20
 15
-1.0000000000E+20
 25
-1.0000000000E+20
 35
-1.0000000000E+20
146
0.0
 13
0.0
 23
0.0
 33
0.0
 16
1.0
 26
0.0
 36
0.0
 17
0.0
 27
1.0
 37
0.0
 76
     0
330
1B
  0
LAYOUT
  5
26
102
{ACAD_REACTORS
330
1A
102
}
330
1A
100
AcDbPlotSettings
  1

  2
none_device
  4

  6

 40
0.0
 41
0.0
 42
0.0
 43
0.0
 44
0.0
 45
0.0
 46
0.0
 47
0.0
 48
0.0
 49
0.0
140
0.0
141
0.0
142
1.0
143
1.0
 70
   688
 72
     1
 73
     0
 74
     5
  7

 75
    16
147
1.0
148
0.0
149
0.0
100
AcDbLayout
  1
Layout2
 70
     1
 71
     2
 10
0.0
 20
0.0
 11
0.0
 21
0.0
 12
0.0
 22
0.0
 32
0.0
 14
0.0
 24
0.0
 34
0.0
 15
0.0
 25
0.0
 35
0.0
146
0.0
 13
0.0
 23
0.0
 33
0.0
 16
1.0
 26
0.0
 36
0.0
 17
0.0
 27
1.0
 37
0.0
 76
     0
330
23
  0
LAYOUT
  5
22
102
{ACAD_REACTORS
330
1A
102
}
330
1A
100
AcDbPlotSettings
  1

  2
none_device
  4
Letter_(8.50_x_11.00_Inches)
  6

 40
6.35
 41
6.35
 42
6.35000508
 43
6.35000508
 44
215.9
 45
279.4
 46
0.0
 47
0.0
 48
0.0
 49
0.0
140
0.0
141
0.0
142
1.0
143
1.0
 70
  1712
 72
     1
 73
     0
 74
     0
  7

 75
     0
147
1.0
148
0.0
149
0.0
100
AcDbLayout
  1
Model
 70
     1
 71
     0
 10
0.0
 20
0.0
 11
279.4
 21
215.9
 12
0.0
 22
0.0
 32
0.0
 14
0.0
 24
0.0
 34
0.0
 15
279.4
 25
215.9
 35
0.0
146
0.0
 13
0.0
 23
0.0
 33
0.0
 16
1.0
 26
0.0
 36
0.0
 17
0.0
 27
1.0
 37
0.0
 76
     0
330
1F
331
29
  0
MLINESTYLE
  5
18
102
{ACAD_REACTORS
330
17
102
}
330
17
100
AcDbMlineStyle
  2
Standard
 70
     0
  3

 62
   256
 51
90.0
 52
90.0
 71
     2
 49
0.5
 62
   256
  6
BYLAYER
 49
-0.5
 62
   256
  6
BYLAYER
  0
ACDBPLACEHOLDER
  5
F
102
{ACAD_REACTORS
330
E
102
}
330
E
  0
SCALE
  5
48
102
{ACAD_REACTORS
330
47
102
}
330
47
100
AcDbScale
 70
     0
300
1:1
140
1.0
141
1.0
290
     1
  0
SCALE
  5
49
102
{ACAD_REACTORS
330
47
102
}
330
47
100
AcDbScale
 70
     0
300
1:2
140
1.0
141
2.0
290
     0
  0
SCALE
  5
4A
102
{ACAD_REACTORS
330
47
102
}
330
47
100
AcDbScale
 70
     0
300
1:4
140
1.0
141
4.0
290
     0
  0
SCALE
  5
4B
102
{ACAD_REACTORS
330
47
102
}
330
47
100
AcDbScale
 70
     0
300
1:5
140
1.0
141
5.0
290
     0
  0
SCALE
  5
4C
102
{ACAD_REACTORS
330
47
102
}
330
47
100
AcDbScale
 70
     0
300
1:8
140
1.0
141
8.0
290
     0
  0
SCALE
  5
4D
102
{ACAD_REACTORS
330
47
102
}
330
47
100
AcDbScale
 70
     0
300
1:10
140
1.0
141
10.0
290
     0
  0
SCALE
  5
4E
102
{ACAD_REACTORS
330
47
102
}
330
47
100
AcDbScale
 70
     0
300
1:16
140
1.0
141
16.0
290
     0
  0
SCALE
  5
4F
102
{ACAD_REACTORS
330
47
102
}
330
47
100
AcDbScale
 70
     0
300
1:20
140
1.0
141
20.0
290
     0
  0
SCALE
  5
50
102
{ACAD_REACTORS
330
47
102
}
330
47
100
AcDbScale
 70
     0
300
1:30
140
1.0
141
30.0
290
     0
  0
SCALE
  5
51
102
{ACAD_REACTORS
330
47
102
}
330
47
100
AcDbScale
 70
     0
300
1:40
140
1.0
141
40.0
290
     0
  0
SCALE
  5
52
102
{ACAD_REACTORS
330
47
102
}
330
47
100
AcDbScale
 70
     0
300
1:50
140
1.0
141
50.0
290
     0
  0
SCALE
  5
53
102
{ACAD_REACTORS
330
47
102
}
330
47
100
AcDbScale
 70
     0
300
1:100
140
1.0
141
100.0
290
     0
  0
SCALE
  5
54
102
{ACAD_REACTORS
330
47
102
}
330
47
100
AcDbScale
 70
     0
300
2:1
140
2.0
141
1.0
290
     0
  0
SCALE
  5
55
102
{ACAD_REACTORS
330
47
102
}
330
47
100
AcDbScale
 70
     0
300
4:1
140
4.0
141
1.0
290
     0
  0
SCALE
  5
56
102
{ACAD_REACTORS
330
47
102
}
330
47
100
AcDbScale
 70
     0
300
8:1
140
8.0
141
1.0
290
     0
  0
SCALE
  5
57
102
{ACAD_REACTORS
330
47
102
}
330
47
100
AcDbScale
 70
     0
300
10:1
140
10.0
141
1.0
290
     0
  0
SCALE
  5
58
102
{ACAD_REACTORS
330
47
102
}
330
47
100
AcDbScale
 70
     0
300
100:1
140
100.0
141
1.0
290
     0
  0
SCALE
  5
59
102
{ACAD_REACTORS
330
47
102
}
330
47
100
AcDbScale
 70
     0
300
1/128" = 1'-0"
140
0.0078125
141
12.0
290
     0
  0
SCALE
  5
5A
102
{ACAD_REACTORS
330
47
102
}
330
47
100
AcDbScale
 70
     0
300
1/64" = 1'-0"
140
0.015625
141
12.0
290
     0
  0
SCALE
  5
5B
102
{ACAD_REACTORS
330
47
102
}
330
47
100
AcDbScale
 70
     0
300
1/32" = 1'-0"
140
0.03125
141
12.0
290
     0
  0
SCALE
  5
5C
102
{ACAD_REACTORS
330
47
102
}
330
47
100
AcDbScale
 70
     0
300
1/16" = 1'-0"
140
0.0625
141
12.0
290
     0
  0
SCALE
  5
5D
102
{ACAD_REACTORS
330
47
102
}
330
47
100
AcDbScale
 70
     0
300
3/32" = 1'-0"
140
0.09375
141
12.0
290
     0
  0
SCALE
  5
5E
102
{ACAD_REACTORS
330
47
102
}
330
47
100
AcDbScale
 70
     0
300
1/8" = 1'-0"
140
0.125
141
12.0
290
     0
  0
SCALE
  5
5F
102
{ACAD_REACTORS
330
47
102
}
330
47
100
AcDbScale
 70
     0
300
3/16" = 1'-0"
140
0.1875
141
12.0
290
     0
  0
SCALE
  5
60
102
{ACAD_REACTORS
330
47
102
}
330
47
100
AcDbScale
 70
     0
300
1/4" = 1'-0"
140
0.25
141
12.0
290
     0
  0
SCALE
  5
61
102
{ACAD_REACTORS
330
47
102
}
330
47
100
AcDbScale
 70
     0
300
3/8" = 1'-0"
140
0.375
141
12.0
290
     0
  0
SCALE
  5
62
102
{ACAD_REACTORS
330
47
102
}
330
47
100
AcDbScale
 70
     0
300
1/2" = 1'-0"
140
0.5
141
12.0
290
     0
  0
SCALE
  5
63
102
{ACAD_REACTORS
330
47
102
}
330
47
100
AcDbScale
 70
     0
300
3/4" = 1'-0"
140
0.75
141
12.0
290
     0
  0
SCALE
  5
64
102
{ACAD_REACTORS
330
47
102
}
330
47
100
AcDbScale
 70
     0
300
1" = 1'-0"
140
1.0
141
12.0
290
     0
  0
SCALE
  5
65
102
{ACAD_REACTORS
330
47
102
}
330
47
100
AcDbScale
 70
     0
300
1-1/2" = 1'-0"
140
1.5
141
12.0
290
     0
  0
SCALE
  5
66
102
{ACAD_REACTORS
330
47
102
}
330
47
100
AcDbScale
 70
     0
300
3" = 1'-0"
140
3.0
141
12.0
290
     0
  0
SCALE
  5
67
102
{ACAD_REACTORS
330
47
102
}
330
47
100
AcDbScale
 70
     0
300
6" = 1'-0"
140
6.0
141
12.0
290
     0
  0
SCALE
  5
68
102
{ACAD_REACTORS
330
47
102
}
330
47
100
AcDbScale
 70
     0
300
1'-0" = 1'-0"
140
12.0
141
12.0
290
     0
  0
ENDSEC
  0
EOF
